PluckAndPlayGuitar Columns Image
PluckAndPlayGuitar Header Image
Right Column
Free Online Guitar Lessons
Right Column

All the Small Things Guitar Tab


PluckAndPlay Facebook


Copyright 2015 PluckAndPlayGuitar.com - Privacy Policy - Terms Of Use - Contact Me
INTRO
E|-------
B|-------
G|-------
D|--5-3--
A|--5-3--
E|--3-1--

E|---------------------------------------------
B|---------------------------------------------
G|--55555555--55555555-------------------------
D|--55555555--33333333-55555555---------3-3-3--
A|--33333333-----------xxxxxxxx-0-0-0-0-3-3-3--
E|---------------------33333333---------1-1-1--

VERSES (Palm Mute here)x4
E|---------------------------------------------
B|---------------------------------------------
G|---------------------------------------------
D|--55555555-----------------------------------
A|--33333333-55555555--33333333--55555555------
E|-----------33333333--11111111--33333333------

PRE CHORUS (No PM)
E|---------------
B|---------------
G|--5------------
D|--5------------
A|--3------------
E|---------------

CHORUS
E|------------------------------------------|
B|------------------------------------------|
G|--5555555555555555------------------------|
D|--5555555555555555-55555555-33333333------|
A|--3333333333333333-xxxxxxxx-33333333------|
E|-------------------33333333-11111111------|

RIFF AFTER CHORUS x2
E|-------------------------------------------------|
B|-------------------------------------------------|
G|-55555555--101010--999--77777777-----------------|
D|-55555555--101010-
-999--xxxxxxxx-7-7-7-7--3-3-3--|
A|-33333333---8-8-8--777--55555555-7-7-7-7--3-3-3--|
E|---------------------------------5-5-5-5--1-1-1--|

Return from All the Small Things Guitar Tab to Beginner Guitar Tabs
PluckAndPlayGuitar Logo
Some forms of punk rock music (like many of Blink 182's songs) are ideal for new guitar players since they are fairly uncomplicated.  This song consist of the G, C and F power chords played in quick succession and is also a good number to use when you want practice your palm muting

Listen to the original to know what the desired effect is.  If you have a distortion effects pedal (or an amp with built in effects) fine tune your sound and try to get it as close to Blink's sound as possible.


NOTES TO THE TAB

The entire tab below consists of three stringed power chords (the occasional muting of the second string [indicated by the x] may be ignored if you find it hard).  Take Note that PM stands for palm mute.

ALSO

More Tabs: For
free access to over 350 video song lessons and professional tabs see what I've written on Jamplay.