PluckAndPlayGuitar Columns Image
PluckAndPlayGuitar Header Image
Right Column
Free Online Guitar Lessons
Right Column

Californication Guitar Tab


PluckAndPlay Facebook


Copyright 2015 PluckAndPlayGuitar.com - Privacy Policy - Terms Of Use - Contact Me

Return from Californication Guitar Tab to Beginner Guitar Tabs
INTRO AND VERSES
e|---------------------------------------------
B|-----0-1-------------------------------------
G|-------------------------------0-2-----------
D|---2-------(2)-(0h2p0)---------------(0)-----
A|-0---------------------(3)---3-----------(3)-
E|---------------------------1-----------------

e|---------------------------------------------
B|-----0-1-------------------------------------
G|-------------------------------0-2-----------
D|---2-------(2)-(0h2p0)---------------(3)-(0)-
A|-0---------------------(3)---3---------------
E|---------------------------1-----------------

END OF VERSE (And if you want these kind of dreams its...)
e|----------------------------------------------------------1-
B|--------5-------------------------------------------------3-
G|------------------------4---------------2----------3------2-
D|----5-----5------------------------------------0----------0-
A|-3------------------5-------5-------3------3----------------
E|---------------3----------------1---------------------------

You can view a full and accurate version .
of the songs lyrics here.

CHORUS CHORDS (Starts with "Pay your surgeon very well...")
Am    Fmaj7
Am    Fmaj7
Am    Fmaj7     Am     Fmaj7

C     G7        Dm9    Am      C    G7      
PluckAndPlayGuitar Logo
Californication has a catchy lead-in melody that is played throughout the verses and, when combined with the Bass Guitar, rounds out a great sounding riff.


NOTES TO THE TAB

The Chili Peppers usually freely mix the rich sounds of their lead and bass guitars.  In this tab the notes in parentheses are actually played by the Bass.  If you're up to up you can try playing them on the guitar as well since it sounds great!

ALSO

More Tabs: For
free access to over 350 video song lessons and professional tabs see what I've written on Jamplay.