PluckAndPlayGuitar Columns Image
PluckAndPlayGuitar Header Image
Right Column
Free Online Guitar Lessons
Right Column

Clocks Guitar Tab

 

PluckAndPlay Facebook


Copyright 2015 PluckAndPlayGuitar.com - Privacy Policy - Terms Of Use - Contact Me

Return from Clocks Guitar Tab to Beginner Guitar Tabs
INTRO, VERSES & CHORUSES
        

e|---------------------------------------------------------|
B|----3----------------3-------------------3---------------|
G|--------2------------------2------------------2----------|
D|------------4--------------------4-----------------------|
A|---------------------------------------------------------|
E|---------------------------------------------------------|

e|---------------------------------------------------------|
B|----1----------------1-------------------1---------------|
G|--------2------------------2------------------2----------|
D|------------2--------------------2-----------------------|
A|---------------------------------------------------------|
E|---------------------------------------------------------|
        
e|---------------------------------------------------------|
B|----1----------------1-------------------1---------------|
G|--------2------------------2------------------2----------|
D|------------2--------------------2-----------------------|
A|---------------------------------------------------------|
E|---------------------------------------------------------|
       
e|---------------------------------------------------------|
B|----0----------------0-------------------0---------------|
G|--------0------------------0------------------0----------|
D|------------2--------------------2-----------------------|
A|---------------------------------------------------------|
E|---------------------------------------------------------|


BRIDGE (Play this twice)

Fmaj7               C    G
   Oh nothing else compares...
PluckAndPlayGuitar Logo
Clocks, by Coldplay, has that memorable guitar lick played during the intro and parts of the verses.  This also serves as the hook for the song.  For this tab to be on the same key as the original song, use a Capo on the 1st fret.


NOTES TO THE TAB

This riff is an arpeggio of the D/F#, Am and Em chords and it's repeated (in this order) throughout the whole song, including the choruses. 

Arpeggio just means that the notes in the chords are plucked individually instead of strummed.  There's one extra bit of chords at the bridge though that you can simply strum for the desired effect.

ALSO

More Tabs: For
free access to over 350 video song lessons and professional tabs see what I've written on Jamplay.