PluckAndPlayGuitar Columns Image
PluckAndPlayGuitar Header Image
Right Column
Free Online Guitar Lessons
Right Column

Hallelujah Guitar Tab

There are many different versions of this song, but the original was sung by Leonard Cohen in 1984.  Ever since that time it's been covered by various artists and some have even changed the lyrics a bit.  I've decided to tab the version by Rufus Wainwright.  You might recongnize this version since it was used in the movie 'Shrek'.

PluckAndPlay Facebook


Copyright 2015 PluckAndPlayGuitar.com - Privacy Policy - Terms Of Use - Contact Me
Looking for some direction and meaning in life?


Return from Hallelujah Guitar Tab to Beginner Guitar Tabs
PluckAndPlayGuitar Logo
NOTES

The version tabbed here consists of the C Chord Progression (that's C, Am, F, G) played in succession,
arpeggio style.

That simply means that the notes of the chords are being plucked individually, instead of being strummed.

ALSO

More Tabs: For
free access to over 350 video song lessons and professional tabs see what I've written on Jamplay.
INTRO
   C               Am
e|------------------------------------|
B|--------1-------------1-------------|
G|------0---0---------2---2-----------|
D|----2------2------2-------2---------|  
A|--3-------------0-------------------|
E|------------------------------------|

Play x2, then...

    F               G               C           C
e|--------1----------------3--------------------------------|
B|------1---1------------3---3------------1-----------2-----|
G|----2-------2--------0-------0--------0---0-------0---0---|
D|--3---------------------------------2-------2---2-------2-|  
A|----------------------------------3-----------0-----------|
E|-------------------3--------------------------------------|


Follow the same pattern of picking
as in the intro, throughout the
entire song, here are the chords
you should play for the verses and
chorus:

Click here for a accurate copy
of the song's lyrics:

VERSE
G        Em 
G        Em 
C        D        G        D
G        C        D 
Em       C 
D        Bm       Em

CHORUS
C         Em 
C         G       D      G
G         Em 
G         Em 
C         D       G         D
G         C       D 
Em   
C          
D          Bm    Em

REPEAT CHORUS


VERSE 2


REPEAT CHORUS


VERSE 3