PluckAndPlayGuitar Columns Image
PluckAndPlayGuitar Header Image
Right Column
Free Online Guitar Lessons
Right Column

Money for Nothing Guitar Riff


Copyright 2011 PluckAndPlayGuitar.com - Privacy Policy - Terms Of Use - Contact Me
Looking for some direction and meaning in life?

Return from Money for Nothing Guitar Riff to Pluck and Play Homepage
The Money for Nothing guitar riff is rated 7 out of 10 and should be playable by any guitarist with enough experience with power chords and basic technique.

This riff consists of the intro of the song "Money for Nothing" and is a classic rock guitar piece.  The tab is played by combining a variety of different power chords with some hammer-on's.  Here's what the tab looks like:

Learn how to play a riff from "Money for Nothing" by Dire Straits with this free video based guitar lesson...
Advertise here
In order to play any of these songs, you need to know how to read guitar tabs and how to use basic guitar techniques
Return to Best Guitar Riffs to learn some more easy Guitar Riffs
------------------|-------------------|
-3--3--3-----3--6-|-----3-------------|
----------5-----5-|--------5-5-3------|
-5--5--5--5--5----|-5---5--5-5-3--5-5-|
------------------|---------------5-5-|
------------------|-------------------|

-----------------|---------------------|
-----------------|---------------------|
---------3-------|-------5--3----------|
----5----3-------|-3/5---5--3--5-------|
-5--5-------5--5-|-1/3---------5-------|
-----------------|---------------------|

--------------------------|-----3--------------|
--------3----3------3---3-|--3-----------------|
----------------5---------|--------5--3--------|
---5----5----5--5---5---5-|--5--5--5--3---5--5-|
--------------------------|---------------5--5-|
--------------------------|--------------------|

-------------------|----------|
-------------------|----------|
-------------3-----|----------|
--4-----5------5---|-3/5---5--|
--------5--------5-|-3/5---5--|
-------------------|----------|

The Tab
Here's what it should look and sound like:
On the original recording, the intro riff is played with the classic Dire Straits distortion sound.  You can play this riff with any kind of distortion or overdrive - the more you crank up the effect, the better you'll get the riff to sound.
PluckAndPlayGuitar Logo