PluckAndPlayGuitar Header Image
PluckAndPlayGuitar Columns Image
Right Column
Free Online Guitar Lessons
Right Column

Shine Guitar Tab


PluckAndPlay Facebook


Copyright 2015 PluckAndPlayGuitar.com - Privacy Policy - Terms Of Use - Contact Me

INTRO RIFF (Played with Light Distortion)
NOTE: DROP Db Tuning (See Video)

Gb-----------------------------------------
Bb-----------------------------------------
Gb---9h11---------11------9-----7--------7-
Db---0-----0--0----0---0--0--0--0--0--0--0-
Ab-----------------------------------------
Db-----------------------------------------
  
Gb-------------------------------|
Bb-------------------------------|
Gb---------9h11--------11----/14-|
Db----0----0-----0--0--0--0---0--|
Ab-------------------------------|
Db-------------------------------|

Gb----------------------------------|
Bb----------------------------------|
Gb--------7-----9-----11------------|
Db--0--0--0--0--0--0--0-------------|
Ab----------------------------------|
Db----------------------------------|

Gb-----------------------------------------|
Bb-----------------------------------------|
Gb------5--0--0--5--0--5--0--5--0--0--5--0-|
Db------5--0--0--5--0--5--0--5--0--0--5--0-|
Ab-----------------------------------------|
Db-----------------------------------------|

Gb-------------------------------------------|
Bb-------------------------------------------|
Gb--7--0--0--7--0--7--0--5--0--0--7--0--7--0-|
Db--5--0--0--5--0--5--0--5--0--0--5--0--5--0-|
Ab-------------------------------------------|
Db-------------------------------------------|
Return from Shine Guitar Tab to Beginner Guitar Tabs
Shine is a great tab for newer players to build confidence since many of the riffs in the song, especially the intro, is fairly easy to play, and sounds great.


NOTES FOR THE SHINE GUITAR TAB

Follow the Intro Riff outlined below with the video of David Walliman from Jamplay explaining both the tuning (which is an uncommon D flat) and the individual pieces of the song.

For clarity's sake I've provided only the riff to the excellent sounding intro here since the detailed tabs and diagrams for the rest of the song is provided by Jamplay.

If you're looking for more songs to play, remember to grab your free copy of my Easy Guitar Songs E-book!
PluckAndPlayGuitar Logo
This video covers the first 17 minutes of this lesson, for the remaining 40 minutes head over to Jamplay for more video, and the free tablature downloads of 'Shine'.

I also recommend that you check out my review of Jamplay - I highly recommend them and can provide discounted sign-ups for PluckAndPlay Readers.