PluckAndPlayGuitar Columns Image
PluckAndPlayGuitar Header Image
Right Column
Free Online Guitar Lessons
Right Column

Summer of 69 Guitar Tab


PluckAndPlay Facebook


Copyright 2015 PluckAndPlayGuitar.com - Privacy Policy - Terms Of Use - Contact Me

Return from Summer of 69 Guitar Tab to Beginner Guitar Tabs
VERSES
P.M    ....     ..............................
e|--2--------2----------------------------------------------
B|--3--------3----------------------------------------------
G|--2--2--2--2--2--2--2--2--2--2--2--2--2--2--2-------------
D|--0--0--0--0--0--0--0--0--0--0--0--0--0--0--0-------------
A|-----------------------------------------------0----------
E|----------------------------------------------------------

P.M    ....     ..............................
e|----------------------------------------------------------
B|--2--------2----------------------------------------------
G|--2--------2----------------------------------------------
D|--2--2--2--2--2--2--2--2--2--2--2--2--2--2--2--0----------
A|--0--0--0--0--0--0--0--0--0--0--0--0--0--0--0--0----------
E|----------------------------------------------------------

CHORUS
e|----------------------------------------------------------
B|-----------3-----------------------2----------------------
G|--------4--------4~-------------2--------2----------------
D|-----4-----------------------2----------------------------
A|--2-----------------------0-------------------------------
E|----------------------------------------------------------

e|-----------2-----------------------3----------------------
B|--------3--------3~----------------------3----------------
G|-----2--------------------------0-------------------------
D|--0--------------------------0----------------------------
A|----------------------------------------------------------
E|--------------------------3-------------------------------

STRAIGHT AFTER CHORUS
e|--12~------14~------15~------14~------12----14------------
B|-----15-------15-------15-------15-------15----15---------
G|--------14-------14-------14-------15---------------------
D|----------------------------------------------------------
A|----------------------------------------------------------
E|----------------------------------------------------------

e|--7~-------9~-------10~------9~-------7-----9-------------
B|-----10-------10-------10-------10-------10----10---------
G|--------9--------9--------9--------9----------------------
D|----------------------------------------------------------
A|----------------------------------------------------------
E|----------------------------------------------------------

For an accurate version of the song lyrics click here.
PluckAndPlayGuitar Logo
Summer of '69 showcases Bryan Adam's Classic soft rock sound.  The tab below is a simplified version of the song that shouldn't prove difficult for beginner to intermediate players.


NOTES TO THE TAB

Remember the ~ sign indicates that you need to apply vibrato on the note for some extra effect.  The PM means Palm mute and the "..." sign indicates which notes needs to be muted.  The best way to get the desired effect would be to listen to the original by Bryan Adams and hear what it sounds like.

ALSO

More Tabs: For
free access to over 350 video song lessons and professional tabs see what I've written on Jamplay.