PluckAndPlayGuitar Columns Image
PluckAndPlayGuitar Header Image
Right Column
Free Online Guitar Lessons
Right Column

Walk This Way Guitar Riff


Copyright 2015 PluckAndPlayGuitar.com - Privacy Policy - Terms Of Use - Contact Me
Return from Walk This Way Guitar Riff to Pluck and Play Homepage
The Walk This Way guitar riff is rated 5 out of 10 and is suitable for any guitar player  who's comfortable with alternate picking.  The tab consists of the hook of the song - a cathcy, repetitive melody that's played mostly on the first three strings of the guitar.

The tab involves quick alternate picking, muting and a single pull off action.  Here's what it looks like:

Learn how to play a riff from "Walk This Way" by Aerosmith, with this free video based guitar lesson...

PluckAndPlay Facebook

In order to play any of these songs, you need to know how to read guitar tabs and how to use basic guitar techniques
Return to Best Guitar Riffs to learn some more easy Guitar Riffs
E----------------------|----------------------------|
B----------------------|----------------------------|
D----------------------|----------------------------|
G-------2-------2------|-------2-------2------2-----|
A-0-1-2---0-1-2--------|-0-1-2---0-1-2--------------|
E-----------------0--x-|------------------3p0-------|

E----------------------|----------------------------|
B----------------------|----------------------------|
D----------------------|------------------2---------|
G-------2-------2------|-------2-------2--2---------|
A-0-1-2---0-1-2--------|-0-1-2---0-1-2----0---------|
E-----------------0----|----------------------------|
The Tab
This is what it should look and sound like:
Notes
The first three notes (A--0-1-2--) should be played with alternate picking to help you play it fast enough.  Playing with up and downstrokes is always quicker than playing all the notes with a downstroke action.  If you're not used to alternate picking, this might take some practice.

Another option is to play the section using hammer-ons (-0h1h2- instead of -0-1-2).  I've done this in the second part of the video and since it achieves the same basic sound, it's a viable alternative

The mute on the top string (E--x-) can be achieved by simply resting a finger against the string (not fretting it!) and plucking the string once.

Aerosmith uses an overdrive/distortion effect for this riff and you can do the same to get the full effect of it.
PluckAndPlayGuitar Logo
If you're looking for more songs to learn, I recommend you check out what I've written about Jamplay

They have a huge selection of video song lessons (Rock, Classical, Metal, Blues, Country, R&B and more - to the left is a small sample) with professional tablature.  That means you get it sounding perfect every time, no matter how complicated the song. 

Jamplay now also offers a limited free trail which allows you access to all of their material.
Jamplay Lesson Samples