PluckAndPlayGuitar Columns Image
PluckAndPlayGuitar Header Image
Right Column
Free Online Guitar Lessons
Right Column

You really got me Guitar Tab

 

PluckAndPlay Facebook


Copyright 2015 PluckAndPlayGuitar.com - Privacy Policy - Terms Of Use - Contact Me

Return from You really got me Guitar Tab to Beginner Guitar Tabs
PluckAndPlayGuitar Logo
This song was originally sung by a 60's band called 'The Kinks' but later adapted by Eddie van Halen to include hard rock distortion, great guitar effects and some lightning fast solo's.

The Kinks version (that I've tabbed below), shouldn't prove too complicated for intermediate players.  Simply play the riffs in the order the tab prescribes.  I've also included the two-string solo.


NOTES TO THE TAB

The verses consist of two-string power chords played in quick succession and sound good with a distorted effect.  The Kink's solo, is played on 2-3 strings with successive picking.

ALSO

More Tabs: For
free access to over 350 video song lessons and professional tabs see what I've written on Jamplay.
e|-----------------------
B|-----------------------
G|-----------------------     x 2
D|-----------------------
A|-3--5-5-3-5------------
E|-1--3-3-1-5------------

e|---------------
B|---------------
G|---------------
D|---2-2---2-----   x 4
A|---0-0---0-----
E|-3-----3-------

e|------------------
B|------------------
G|---2-2---2--------    x 6
D|---0-0---0--------
A|-3-----3----------
E|------------------

e|--------0---------
B|--------1---------
G|--------0---------    Let it ring...
D|--------2---------
A|--------3---------
E|------------------


SOLO
e|-------------------------------
B|--1-1-1-1-1-1-1---1-3-----1-3--
G|----------------------3-0------
D|-------------------------------
A|-------------------------------
E|-------------------------------

e|--------------------------------------
B|----------------------1-3-------------
G|-3-0--3-0-3-0-3-0-3-0-----3-0-3-0-3-0-
D|--------------------------------------
A|--------------------------------------
E|--------------------------------------

e|--3-3-3---3-1-------------------
B|-------------------------1-3-1--
G|-------------3-0-3-0-3-0--------
D|--------------------------------
A|--------------------------------
E|--------------------------------

e|------------------------------------
B|-----2-1----------------------------
G|--3------3--0--0--0--3--0-0---------
D|--------------3--3--3----3----------
A|------------------------------------
E|------------------------------------