PluckAndPlayGuitar Columns Image
PluckAndPlayGuitar Header Image
Right Column
Free Online Guitar Lessons
Right Column

Zombie Guitar Tab

This Zombie Guitar Tab maps out the basics for one of the songs that made the Cranberries famous.  I've included the solo which is easy enough to play.


NOTES TO THE TAB

Listen to the original song to get the desired guitar effect.  The Cranberries employ some heavy distortion during the choruses which compliment the drive of the song.  There are also two guitars playing at all times - so, for example, while the lead guitar would be playing the solo, a second guitar does the distorted rhythm pattern. 

The solo in this song is nice and simple since it's played on one string only which makes it ideal for newer players.

ALSO

More Tabs: For
free access to over 350 video song lessons and professional tabs see what I've written on Jamplay.

Copyright 2015 PluckAndPlayGuitar.com - Privacy Policy - Terms Of Use - Contact Me

Return from Zombie Guitar Tab to Beginner Guitar Tabs
INTRO
   E   Cmaj7   G     D
e|-0-----0-----3-----2
B|-0-----0-----0-----3
G|-0-----0-----0-----2
D|-2-----2-----0-----0
A|-2-----3-----2-----0
E|-0-----------3-----x

(Distorted)
e|------------------------------------------------------------------|
B|------------------------------------------------------------------|
G|------------------------------------------------------------------|
D|--2-2-2-2-2-2-2-2-2-2-2-2-2-2-2-2---------------------------------|
A|--2-2-2-2-2-2-2-2-3-3-3-3-3-3-3-3-2-2-2-2-2-2-2-2-0-0-0-0-0-0-0-0-|
E|----------------------------------3-3-3-3-3-3-3-3-2-2-2-2-2-2-2-2-|

VERSE
The verse starts with this riff:
e-|--7h8--5h7--3h5--2h3p2-------|
B-|-----------------------3-3-0-|
G-|-----------------------------|
D-|-----------------------------|
A-|-----------------------------|
E-|-----------------------------|

CHORUS (Distorted)
e|------------------------------------------------------------------|
B|------------------------------------------------------------------|
G|------------------------------------------------------------------|
D|--2-2-2-2-2-2-2-2-2-2-2-2-2-2-2-2---------------------------------|
A|--2-2-2-2-2-2-2-2-3-3-3-3-3-3-3-3-2-2-2-2-2-2-2-2-0-0-0-0-0-0-0-0-|
E|----------------------------------3-3-3-3-3-3-3-3-2-2-2-2-2-2-2-2-|


SOLO
e-|--7h8--5-7--7-7-7-7h8--5-7--7-7-7-7h8--5-7--7-7-7-7h8--5-7--|
B-|------------------------------------------------------------|
G-|------------------------------------------------------------|
D-|------------------------------------------------------------|
A-|------------------------------------------------------------|
E-|------------------------------------------------------------|

e-|--2-2-2-2h3--0-2--2-2-2-2h3--0-2--2-2-2-2h3--0-2--2-0--0-2--|
B-|------------------------------------------------------------|
G-|------------------------------------------------------------|
D-|------------------------------------------------------------|
A-|------------------------------------------------------------|
E-|------------------------------------------------------------|

e-|--5--5--5-7--7-5-5-5-7--7-5-5-3-2-2--2-0-0--|
B-|--------------------------------------------|
G-|--------------------------------------------|
D-|--------------------------------------------|
A-|--------------------------------------------|
E-|--------------------------------------------|

e-|--2-2-2-3--0-2--2-2-2-3--0-2--2-2-2-3--0-2--2-0--0--|
B-|----------------------------------------------------|
G-|----------------------------------------------------|
D-|----------------------------------------------------|
A-|----------------------------------------------------|
E-|----------------------------------------------------|
PluckAndPlayGuitar Logo